mtb, triatlon, běh, výsledky

detailní výsledky závodu

2018 ICF Canoe Slalom World Ranking Race - HEATS - Praha [ 11.08.18 ]

C1M - HT2 - 11.08.18

1.054411KAMINSKY JAN99U23CZE
123456789101112131415161718192021222324
------------------------ 095.35 95.35 DNS
0


2.035235POTOCNY MARCEL85HUN
123456789101112131415161718192021222324
------------------------ 097.34 97.34 DNS
0


3.044811LOWTHER STEVEN96U23AUS
123456789101112131415161718192021222324
-------------------2---- 297.64 99.64 DNS
0


4.083772KRAL ADAM03U16CZE
123456789101112131415161718192021222324
------------------------ 099.65 99.65 DNS
0


5.038437HODSON ETHAN90AUS
123456789101112131415161718192021222324
------------------------ 099.81 99.81 DNS
0


6.075376BASSETT KAYLEN97U23AUS
123456789101112131415161718192021222324
----------2-----2----2-- 694.57 100.57 DNS
0


7.085454PERRIO GASPARD00FRA
123456789101112131415161718192021222324
---------------2-------- 299.41 101.41 DNS
0


8.039699TANIGUCHI KAZUYA86JPN
123456789101112131415161718192021222324
--------2--------------- 2100.58 102.58 DNS
0


9.068873WENDL DENIS00CZE
123456789101112131415161718192021222324
------------------------ 0103.16 103.16 DNS
0


10.084744SARRAMEA MARC01FRA
123456789101112131415161718192021222324
----------2------------- 2101.2 103.20 DNS
0


11.089447RIHA MATYAS03U16CZE
123456789101112131415161718192021222324
---------------2-------- 2102.41 104.41 104.41
0


12.084089FISCHER ADRIEN01FRA
123456789101112131415161718192021222324
----2-------2----------- 4101.44 105.44 105.44
0


13.035361SKANTAR PETER82SVK
123456789101112131415161718192021222324
------------------------ 0106.41 106.41 106.41
0


14.051879LHOTA KRYSTOF02U16CZE
123456789101112131415161718192021222324
-------------222------2- 898.44 106.44 106.44
0


15.051798CHAIDET YUTTHAKAN95U23THA
123456789101112131415161718192021222324
------------------------ 0106.46 106.46 106.46
0


16.051880PRIHODA LUKAS01CZE
123456789101112131415161718192021222324
------------2----------- 2104.56 106.56 106.56
0


17.051834PEXA JAKUB94CZE
123456789101112131415161718192021222324
-----------2--22-----2-- 8101.86 109.86 109.86
0


18.053521GOLOVACHENKO DENIS80BLR
123456789101112131415161718192021222324
-------------2--2------- 4106.24 110.24 110.24
0


19.088660HUET LUBIN01FRA
123456789101112131415161718192021222324
----------------2------- 2108.86 110.86 110.86
0


20.087513CORNU TIMOTHÉE01FRA
123456789101112131415161718192021222324
------2--------2-------- 4108.53 112.53 112.53
0


21.089648KUCERA TOMAS70CZE
123456789101112131415161718192021222324
----------------2-2----- 4112.5 116.50 116.50
0


22.084045WICHE ETIENNE02U16FRA
123456789101112131415161718192021222324
--------2-2---22-----2-- 10109.79 119.79 119.79
0


23.083511GURTLER ADAM01CZE
123456789101112131415161718192021222324
---------------2--2----- 4118.76 122.76 122.76
0


24.088668SALMON MARIN03U16FRA
123456789101112131415161718192021222324
------2----2222--------- 10120.6 130.60 130.60
0


25.085456LE MEUR GLEN02U16FRA
123456789101112131415161718192021222324
------------22---------- 4130.28 134.28 134.28
0


26.084158ROHRER PITT02U16SUI
123456789101112131415161718192021222324
---------50-------------- 50121.56 171.56 171.56
0


27.088656DEBLIQUY MEWEN03U16FRA
123456789101112131415161718192021222324
------2-22--22-2--2----- 14161.12 175.12 175.12
0


28.088664NOYALET GWENOLE03U16FRA
123456789101112131415161718192021222324
----22-------2----50--2-- 58133.14 191.14 191.14
0


29.088666OLLIVO THOMAS02U16FRA
123456789101112131415161718192021222324
-2-2-------50-------2---- 56143.82 199.82 199.82
0


30.084395PHUTTRAKSA CHONLASIT02U16THA
123456789101112131415161718192021222324
-----50----2------------- 52147.98 199.98 199.98
0


31.035129SLAFKOVSKY ALEXANDER83SVK
123456789101112131415161718192021222324
0 DNS
0


32.035353BENUS MATEJ87SVK
123456789101112131415161718192021222324
0 DNS
0


33.035038GEBAS VITEZSLAV84CZE
123456789101112131415161718192021222324
0 DNS
0


34.035056RAK TOMAS89CZE
123456789101112131415161718192021222324
0 DNS
0


35.035059JANE MICHAL86CZE
123456789101112131415161718192021222324
0 DNS
0


36.035602FOULON KILIAN92FRA
123456789101112131415161718192021222324
0 DNS
0


37.036119VETROVSKY JAN97U23CZE
123456789101112131415161718192021222324
0 DNS
0


38.060106PRIHODA MATOUS98U23CZE
123456789101112131415161718192021222324
0 DNS
0


39.059988BASSETT LACHLAN99U23AUS
123456789101112131415161718192021222324
0 DNS
0


40.036778RIHA MARTIN92CZE
123456789101112131415161718192021222324
0 DNS
0


41.035061JANE JAKUB90CZE
123456789101112131415161718192021222324
0 DNS
0


42.084743SARRAMEA LUC99U23FRA
123456789101112131415161718192021222324
0 DNS
0


43.042007HEGER TOMAS98U23CZE
123456789101112131415161718192021222324
0 DNS
0


44.083781BOHATY KAREL01CZE
123456789101112131415161718192021222324
0 DNS
0


45.036013MASEK JAN78CZE
123456789101112131415161718192021222324
0 DNS
0


46.035041HAVLICEK JAN82CZE
123456789101112131415161718192021222324
0 DNS
0


47.089555KARASEK PETR86CZE
123456789101112131415161718192021222324
0 DNS
0


48.089598KUNA VACLAV87CZE
123456789101112131415161718192021222324
0 DNS
0


49.035270TRATSIAK VIKTAR87BLR
123456789101112131415161718192021222324
0 DNS
0


50.053138CONEY WILLIAM97U23GBR
123456789101112131415161718192021222324
0 DNS
0


výsledky v pdf

výsledky v excelu

Trojský pohár 2013 - slalom R4

větší video