mtb, triatlon, běh, výsledky

detailní výsledky závodu

MČR žáků ve slalomu - České Vrbné [ 01.09.18 ]

K1 ženy - 01.09.18

1.119064KNEBLOVÁ Klára05ZS2+Olomouc
123456789101112131415161718
----------2------- 283.29 85.29 82.32
------------------ 082.32 82.32


2.023017ŠVEHLOVÁ Kateřina05ZSSKVS ČB
123456789101112131415161718
--2--------------- 285.69 87.69 87.69
---2-------------- 286.53 88.53


3.042006GALUŠKOVÁ Bára06ZMSušice
123456789101112131415161718
------------------ 089.39 89.39 89.39
--22-------------- 491.67 95.67


4.009138ČERVENKOVÁ Amélie05ZSUSK Pha
123456789101112131415161718
------------------ 093.44 93.44 93.44
---2----502-------- 54109.68 163.68


5.119127DOLEŽALOVÁ Bára05ZSOlomouc
123456789101112131415161718
----2------------- 296.53 98.53 93.58
------------------ 093.58 93.58


6.119005RETKOVÁ Anna05ZSOlomouc
123456789101112131415161718
2-2-2------------- 698.53 104.53 94.69
------------------ 094.69 94.69


7.119137JANÚ Veronika05ZSOlomouc
123456789101112131415161718
--2------2-------- 497.28 101.28 94.84
--2--------------- 292.84 94.84


8.024024NOVOSADOVÁ Kristina04ZSČ.Kruml.
123456789101112131415161718
--2-----------2--- 493.44 97.44 97.10
---2-------------- 295.1 97.10


9.045024SOUČKOVÁ Lucie04ZSKVS HK
123456789101112131415161718
--22-------------- 498.4 102.40 97.77
------------------ 097.77 97.77


10.066007HOJDOVÁ Eliška05ZSHorš.Týn
123456789101112131415161718
2----------------- 298.07 100.07 98.09
---------2-------- 296.09 98.09


11.061039SAMKOVÁ Olga05ZSTřebech.
123456789101112131415161718
--2--------2------ 494.74 98.74 98.74
---2-2-----2------ 692.98 98.98


12.009096MORENOVÁ Adriana04ZSUSK Pha
123456789101112131415161718
----------2------- 299.5 101.50 99.76
------------------ 099.76 99.76


13.034027TÚMOVÁ Veronika06ZMHubertus
123456789101112131415161718
-------------22--- 498.53 102.53 99.84
--------------2--- 297.84 99.84


14.023085TESAŘOVÁ Hana04ZSSKVS ČB
123456789101112131415161718
---2------2------- 495.87 99.87 99.87
--22---50--2------- 5691.87 147.87


15.129007DAŇKOVÁ Anna04ZS3+Šumperk
123456789101112131415161718
------------------ 0101.97 101.97 101.97
------------------ 0104.69 104.69


16.009034KREMROVÁ Adéla05ZSUSK Pha
123456789101112131415161718
----------2-50----- 52103.23 155.23 106.25
------------------ 0106.25 106.25


17.121035MRÁZKOVÁ Klára06ZM3+KK Opava
123456789101112131415161718
------------------ 0106.4 106.40 106.40
-2---------------- 2119.91 121.91


18.010107PAVELKOVÁ Markéta05ZSBenátky
123456789101112131415161718
2-------2---2----- 6101.31 107.31 107.30
-2-------2-------- 4103.3 107.30


19.009019ERLOVÁ Natálie06ZM3+USK Pha
123456789101112131415161718
------2----2------ 4108.23 112.23 108.69
2----------------- 2106.69 108.69


20.118017FABIANOVÁ Anna07ZMTzunami
123456789101112131415161718
--2--------2------ 4104.72 108.72 108.72
----------2------- 2119.32 121.32


21.049063HEKOVÁ Natálie06ZMRoudnice
123456789101112131415161718
-------------2---- 2112.27 114.27 109.50
-------------2---- 2107.5 109.50


22.119207HANSGUTOVÁ Monika05ZS3+Olomouc
123456789101112131415161718
2-----------22---- 6104.51 110.51 110.51
--2--2----2------- 6123.6 129.60


23.009023KOLÁŘOVÁ Markéta05ZS3+USK Pha
123456789101112131415161718
--2--------------- 2108.68 110.68 110.68
------------------ 0118.04 118.04


24.030046ŠINDELÁŘOVÁ Tereza04ZSVS Tábor
123456789101112131415161718
--------------2--- 2110.61 112.61 112.61
--2--------------- 2120.53 122.53


25.108054DOBEŠOVÁ Eva04ZS3+VSDK
123456789101112131415161718
--2---------2-2--- 6108.78 114.78 114.78
---2--------2----- 4126.64 130.64


26.009099SEDLÁKOVÁ Magdalena05ZS3+USK Pha
123456789101112131415161718
--------2---2-2--- 6112.66 118.66 116.07
--2--------------- 2114.07 116.07


27.049066BEEROVÁ Anežka07ZMRoudnice
123456789101112131415161718
--2--------2------ 4112.71 116.71 116.71
2----------------- 2126.37 128.37


28.128015RUTAROVÁ Kateřina05ZS3+VS Desná
123456789101112131415161718
-----------2------ 2120.01 122.01 117.19
-----2---2-------- 4113.19 117.19


29.014011ŠRÉTROVÁ Amálie07ZMKralupy
123456789101112131415161718
----2-2----2------ 6129.85 135.85 117.33
-22----2---------- 6111.33 117.33


30.024059KLEINOVÁ Štěpánka05ZSČ.Kruml.
123456789101112131415161718
----------2-2-2--- 6111.64 117.64 117.64
---2------2------- 4118.78 122.78


31.119198VRBOVÁ Marie07ZM3+Olomouc
123456789101112131415161718
-------2-2-------- 4124.68 128.68 118.24
---------2--2-2--- 6112.24 118.24


32.119176KRATOCHVÍLOVÁ Adéla07ZM3+Olomouc
123456789101112131415161718
-----2------------ 2126.16 128.16 119.77
--2--------2------ 4115.77 119.77


33.009179BURGEROVÁ Ester04ZSUSK Pha
123456789101112131415161718
----------2------- 2130.04 132.04 120.07
-----2--2--------- 4116.07 120.07


34.014010HORÁKOVÁ Julie06ZM3+Kralupy
123456789101112131415161718
2-2---2-2--------- 8112.73 120.73 120.73
-----2--------2--- 4140.32 144.32


35.119181STŘÍLKOVÁ Jana04ZS3+Olomouc
123456789101112131415161718
--22--2----------- 6116.56 122.56 122.56
-----2-----2------ 4131.35 135.35


36.057008BUNDOVÁ Simona04ZSPardub.
123456789101112131415161718
-2---2---250-22---- 60127.25 187.25 123.41
2-2-----------2-2- 8115.41 123.41


37.014076TKADLECOVÁ Kateřina05ZSKralupy
123456789101112131415161718
2--------2--2----- 6117.63 123.63 123.63
-2---------------- 2127.68 129.68


38.023007BOČKOVÁ Kateřina07ZM3+SKVS ČB
123456789101112131415161718
--2--------------- 2123.44 125.44 125.44
--2--------2------ 4131.2 135.20


39.066017HOJDOVÁ Markéta07ZMHorš.Týn
123456789101112131415161718
--50------2-------- 52108.92 160.92 125.94
------2----2------ 4121.94 125.94


40.121006ŠEFČÍKOVÁ Anastázie04ZS3+KK Opava
123456789101112131415161718
--------2--------- 2124.07 126.07 126.07
-2----------2----- 4165 169.00


41.045016MOTLOVÁ Andrea06ZMKVS HK
123456789101112131415161718
--2--2--2---2----- 8119.05 127.05 127.05
--50-------2--2---- 54125.83 179.83


42.064055ZEDNÍČKOVÁ Michaela05ZSVys.Mýto
123456789101112131415161718
50--------------2-- 52141.76 193.76 127.14
-22--------------- 4123.14 127.14


43.119192MALÁ Magdaléna07ZMOlomouc
123456789101112131415161718
-2---------2------ 4169.55 173.55 127.69
-------2---2------ 4123.69 127.69


44.045033ŠTĚPÁNKOVÁ Julie06ZMKVS HK
123456789101112131415161718
---2----22--2----- 8121.57 129.57 129.57
2----22--222------ 12126.89 138.89


45.103030MATĚJÍČKOVÁ Anežka05ZS3+KK Brno
123456789101112131415161718
--22--2---2---2--- 10119.77 129.77 129.77
-2----------2----- 4129.88 133.88


46.119206NOVOSADOVÁ Eliška05ZS3+Olomouc
123456789101112131415161718
-----------2------ 2130.44 132.44 132.44
-22--------------- 4138.87 142.87


47.119196STLOUKALOVÁ Aneta07ZMOlomouc
123456789101112131415161718
------------2----- 2131.34 133.34 133.34
-----222----2----- 8143.56 151.56


48.108041STŘECHOVÁ Ela05ZS3+VSDK
123456789101112131415161718
50-2----2---22----- 58170.15 228.15 134.78
-2-2------22------ 8126.78 134.78


49.042041PECHLÁTOVÁ Nikola04ZS3+Sušice
123456789101112131415161718
--22--50----------- 54115.42 169.42 135.92
--2--2-2--2------- 8127.92 135.92


50.011034NEKOLNÁ Žofie06ZMKK Brand
123456789101112131415161718
--2---------2----- 4146.72 150.72 138.45
---------2-------- 2136.45 138.45


51.128006JURAJDOVÁ Simona07ZMVS Desná
123456789101112131415161718
-250------22------- 56134.04 190.04 140.58
--2--------------- 2138.58 140.58


52.039029ŠAMPALÍKOVÁ Klára04ZSLoko Plz
123456789101112131415161718
2-2--------2------ 6135.68 141.68 141.68
---2------50-50----- 102114.13 216.13


53.128007JURAJDOVÁ Veronika07ZMVS Desná
123456789101112131415161718
---2222----------- 8139.88 147.88 147.88
--------------2--- 2162.3 164.30


54.014079CHOCHOLOVÁ Veronika07ZMKralupy
123456789101112131415161718
-------------2---- 2153.24 155.24 155.24
-22-2-----2-2----- 10146.48 156.48


55.030068RIANTOVÁ Marie06ZMVS Tábor
123456789101112131415161718
-2-22225050--2-2--2- 116120.28 236.28 165.44
-----2---2-2222--- 12153.44 165.44


56.014081SAKALOVÁ Markéta07ZMKralupy
123456789101112131415161718
999 DNF 166.29
--2---2----22----- 8158.29 166.29


57.108034VOJTĚCHOVÁ Barbora04ZSVSDK
123456789101112131415161718
--------50-----2--- 52143.33 195.33 195.33
999 DNF


58.027003KYLBERGEROVÁ Iva07ZMOt.Strak
123456789101112131415161718
25022---------22--- 60179.82 239.82 234.92
-----502---2---2--- 56178.92 234.92


59.001120MILOTOVÁ Dora07ZMBoh.Pha
123456789101112131415161718
999 DNF 999.00
999 DNF


60.014082SAKALOVÁ Magdaléna07ZMKralupy
123456789101112131415161718
999 DNF 999.00
999 DNF


výsledky v pdf

výsledky v excelu

Mělnická Jizerská 50 - 2014 - finále ženy

větší video