mtb, triatlon, běh, výsledky

detailní výsledky závodu

MČR žáků ve slalomu družstva - Paraplíčko [ 08.09.07 ]

3x K1 muži - 08.09.07

1.121010
121069
121031
Bahenský Matouš
Binčík Petr
Urban Tomáš
94
94
94
ZSKK Opava
123456789101112131415161718
------------------ 0114.34 114.34 231.22
------------------ 0116.88 116.88


2.042027
042038
042014
Galušková Karolína
Novák Tomáš
Šrámek Ondřej
95
93
94
ZSSušice
123456789101112131415161718
------------------ 0120.35 120.35 239.65
------------------ 0119.3 119.30


3.043016
043029
043010
Myšák Albert
Šedivý Jakub
Svobodová Jana
94
94
93
ZSČ.Lípa
123456789101112131415161718
------2----------- 2125.91 127.91 249.48
------------------ 0121.57 121.57


4.009083
009020
009177
Strnad Jaroslav
Adámek Filip
Větrovská Aneta
93
94
93
ZSUSK Pha
123456789101112131415161718
--------------2--- 2128.68 130.68 249.89
------------------ 0119.21 119.21


5.103019
103036
103020
Sosnar Jakub
Švéda Jakub
Hošek Ondřej
94
93
95
ZS
ZS
ZM
KK Brno
KK Brno
123456789101112131415161718
-------2-22------- 6125.55 131.55 256.78
------------------ 0125.23 125.23


6.023030
023115
023093
Kasanda Michal
Štětka Matěj
Sedlák Jan
93
96
93
ZSSK VS ČB
123456789101112131415161718
--2------2--4----- 8133.59 141.59 273.94
------------------ 0132.35 132.35


7.009022
009026
009068
Šiman Matěj
Raška Jan
Rohan Lukáš
95
95
95
ZMUSK Pha
123456789101112131415161718
------------2---22 6141.25 147.25 282.71
---4----2--------- 6129.46 135.46


8.009056
009037
009028
Svoboda Adam
Pexa Jakub
Kořínek Filip
94
94
95
ZSUSK Pha
123456789101112131415161718
-----------22----- 4134.73 138.73 290.81
-----2-2--------2- 6146.08 152.08


9.133059
133058
133056
Olejník Jan
Košík Michal
Chabiča Martin
96
95
95
ZMSKVeselí
123456789101112131415161718
-4----2----------- 6145.67 151.67 301.17
-4--2-2--2-------- 10139.5 149.50


10.047012
047004
047019
Lišková Monika
Hausnerová Milena
Pospíchal Radek
93
94
94
ZSKadaň
123456789101112131415161718
-------2--2------- 4160.29 164.29 314.55
---------2-------- 2148.26 150.26


11.132003
132036
132051
Štec Daniel
Žniva Marek
Franek Jakub
94
95
95
ZSVal.Mez.
123456789101112131415161718
------------------ 0160.12 160.12 321.30
------2----22----- 6155.18 161.18


12.064021
064038
064037
Suchánek Daniel
Jílek Jan
Vyhnálek Jan
93
93
96
ZSVys.Mýto
123456789101112131415161718
------------------ 0158.9 158.90 327.75
------2--2-222---- 10158.85 168.85


13.119140
119124
119054
Hric Filip
Neužil Jakub
Šrámek Jonatan
93
93
94
ZSOlomouc
123456789101112131415161718
2--------------2-- 4144.71 148.71 350.70
------42-2-2----50- 60141.99 201.99


14.119089
119155
119037
Krausová Tereza
Bučkevičová Věra
Laitoch Petr
93
94
95
ZSOlomouc
123456789101112131415161718
------42-5064----2- 68185.91 253.91 432.79
-2-2--2-2-222----2 16162.88 178.88


15.052022
052028
052024
Petříček Vojtěch
Slanina Vladimír
Klementová Silvie
94
94
94
ZSL.Žatec
123456789101112131415161718
0
0


detailní výsledky

výsledky v pdf

výsledky v excelu

FREE Litovelská jízda 2013

větší video