mtb, triatlon, běh, výsledky

detailní výsledky závodu

2022 ICF Canoe Slalom World Ranking Race - SEMIFINAL - Praha - Troja [ 31.07.22 ]

C1M - 31.07.22

1.035412THOMAS MARTIN89FRA
12345678910111213141516171819202122232425
------------------------- 094.65 94.65 94.65
0


2.072626POLENCIC NEJC01SLO
12345678910111213141516171819202122232425
------------------------- 096.33 96.33 96.33
0


3.096006KETTLE JAMES01GBR
12345678910111213141516171819202122232425
------------------------- 098.22 98.22 98.22
0


4.096060ROZENTALS KURTS02GBR
12345678910111213141516171819202122232425
------------------------- 098.75 98.75 98.75
0


5.035365MARTIKAN MICHAL79SVK
12345678910111213141516171819202122232425
------------------------- 099.56 99.56 99.56
0


6.036119VETROVSKY JAN97CZE
12345678910111213141516171819202122232425
----------2-------------- 297.63 99.63 99.63
0


7.069417MACUS LUDOVIT01SVK
12345678910111213141516171819202122232425
------------------------- 0100.02 100.02 100.02
0


8.077363MICOZZI FLAVIO00ITA
12345678910111213141516171819202122232425
------------------------- 0100.15 100.15 100.15
0


9.083773KRATOCHVIL MARTIN03CZE
12345678910111213141516171819202122232425
-----------------------2- 298.17 100.17 100.17
0


10.097349ROYLE LUC03GBR
12345678910111213141516171819202122232425
------------------------- 0101.22 101.22 101.22
0


11.118698HOCEVAR ZIGA LIN07SLO
12345678910111213141516171819202122232425
------------------------- 0101.49 101.49 101.49
0


12.112531JIRAS FILIP05CZE
12345678910111213141516171819202122232425
------------------------- 0101.96 101.96 101.96
0


13.092297BOOTE ALFIE01GBR
12345678910111213141516171819202122232425
-----2---2--------------- 498.35 102.35 102.35
0


14.089555KARASEK PETR86CZE
12345678910111213141516171819202122232425
---------------2--------- 2100.53 102.53 102.53
0


15.083772KRAL ADAM03CZE
12345678910111213141516171819202122232425
-----2-----------------2- 498.9 102.90 102.90
0


16.098978URBAN MICHAL04CZE
12345678910111213141516171819202122232425
----2----------2--------- 498.98 102.98 102.98
0


17.098676IVANECKY JAROMIR04SVK
12345678910111213141516171819202122232425
------------------------- 0103.73 103.73 103.73
0


18.112391STAFFEN DAVID05SVK
12345678910111213141516171819202122232425
----------------2-------- 2101.75 103.75 103.75
0


19.089447RIHA MATYAS03CZE
12345678910111213141516171819202122232425
--------------2--------2- 4100.69 104.69 104.69
0


20.112576VETROVSKY TOMAS05CZE
12345678910111213141516171819202122232425
------------------------- 0105.98 105.98 105.98
0


21.083978BARZON MARTINO03ITA
12345678910111213141516171819202122232425
-----22------------------ 4102.49 106.49 106.49
0


22.059988BASSETT LACHLAN99AUS
12345678910111213141516171819202122232425
---------2-2------------- 4102.55 106.55 106.55
0


23.077343JAVORNIK JUS01SLO
12345678910111213141516171819202122232425
------2----2-----------2- 6101.38 107.38 107.38
0


24.087899URBAN DANIEL01CZE
12345678910111213141516171819202122232425
------------------2-2---- 4104.06 108.06 108.06
0


25.105973KRAJCI SAMUEL05SVK
12345678910111213141516171819202122232425
----2----------2--------- 4104.07 108.07 108.07
0


26.083621DIESKA JURAJ02SVK
12345678910111213141516171819202122232425
------2---2----2--------- 6102.34 108.34 108.34
0


27.105972JANOVCIK ADAM02SVK
12345678910111213141516171819202122232425
---------2-----2--------- 4104.42 108.42 108.42
0


28.112664ROZENTALS KLASS05GBR
12345678910111213141516171819202122232425
------------------------- 0109.14 109.14 109.14
0


29.105997KRATOCHVIL LUKAS05CZE
12345678910111213141516171819202122232425
----22------------2-2---- 8102.22 110.22 110.22
0


30.104615BORRMANN BEN05GER
12345678910111213141516171819202122232425
----22---2---------2----- 8103.32 111.32 111.32
0


detailní výsledky

výsledky v pdf

výsledky v excelu

Mělnická Jizerská 50 - 2014 - finále ženy

větší video